  0
SECTION
  2
HEADER
  9
$ACADVER
  1
AC1015
  9
$ACADMAINTVER
 70
    20
  9
$DWGCODEPAGE
  3
ANSI_1252
  9
$INSBASE
 10
0.0
 20
0.0
 30
0.0
  9
$EXTMIN
 10
49.64294729972692
 20
885.1442270279243
 30
0.0
  9
$EXTMAX
 10
51.77930929457914
 20
885.5592270279242
 30
0.0
  9
$LIMMIN
 10
0.0
 20
0.0
  9
$LIMMAX
 10
420.0
 20
297.0
  9
$ORTHOMODE
 70
     1
  9
$REGENMODE
 70
     1
  9
$FILLMODE
 70
     1
  9
$QTEXTMODE
 70
     0
  9
$MIRRTEXT
 70
     1
  9
$LTSCALE
 40
1.0
  9
$ATTMODE
 70
     1
  9
$TEXTSIZE
 40
2.5
  9
$TRACEWID
 40
1.0
  9
$TEXTSTYLE
  7
SANINDUSA
  9
$CLAYER
  8
0
  9
$CELTYPE
  6
ByLayer
  9
$CECOLOR
 62
   256
  9
$CELTSCALE
 40
1.0
  9
$DISPSILH
 70
     0
  9
$DIMSCALE
 40
1.0
  9
$DIMASZ
 40
2.0
  9
$DIMEXO
 40
1.0
  9
$DIMDLI
 40
1.0
  9
$DIMRND
 40
0.0
  9
$DIMDLE
 40
0.0
  9
$DIMEXE
 40
1.0
  9
$DIMTP
 40
0.0
  9
$DIMTM
 40
0.0
  9
$DIMTXT
 40
2.0
  9
$DIMCEN
 40
0.0
  9
$DIMTSZ
 40
0.0
  9
$DIMTOL
 70
     0
  9
$DIMLIM
 70
     0
  9
$DIMTIH
 70
     0
  9
$DIMTOH
 70
     0
  9
$DIMSE1
 70
     0
  9
$DIMSE2
 70
     0
  9
$DIMTAD
 70
     1
  9
$DIMZIN
 70
     8
  9
$DIMBLK
  1

  9
$DIMASO
 70
     1
  9
$DIMSHO
 70
     1
  9
$DIMPOST
  1

  9
$DIMAPOST
  1

  9
$DIMALT
 70
     0
  9
$DIMALTD
 70
     3
  9
$DIMALTF
 40
0.03937007874016
  9
$DIMLFAC
 40
1.0
  9
$DIMTOFL
 70
     1
  9
$DIMTVP
 40
0.0
  9
$DIMTIX
 70
     0
  9
$DIMSOXD
 70
     0
  9
$DIMSAH
 70
     0
  9
$DIMBLK1
  1

  9
$DIMBLK2
  1

  9
$DIMSTYLE
  2
SANINDUSA
  9
$DIMCLRD
 70
   256
  9
$DIMCLRE
 70
   256
  9
$DIMCLRT
 70
   256
  9
$DIMTFAC
 40
1.0
  9
$DIMGAP
 40
1.0
  9
$DIMJUST
 70
     0
  9
$DIMSD1
 70
     0
  9
$DIMSD2
 70
     0
  9
$DIMTOLJ
 70
     0
  9
$DIMTZIN
 70
     8
  9
$DIMALTZ
 70
     0
  9
$DIMALTTZ
 70
     0
  9
$DIMUPT
 70
     0
  9
$DIMDEC
 70
     1
  9
$DIMTDEC
 70
     1
  9
$DIMALTU
 70
     2
  9
$DIMALTTD
 70
     3
  9
$DIMTXSTY
  7
SANINDUSA
  9
$DIMAUNIT
 70
     0
  9
$DIMADEC
 70
     1
  9
$DIMALTRND
 40
0.0
  9
$DIMAZIN
 70
     0
  9
$DIMDSEP
 70
    44
  9
$DIMATFIT
 70
     3
  9
$DIMFRAC
 70
     0
  9
$DIMLDRBLK
  1

  9
$DIMLUNIT
 70
     2
  9
$DIMLWD
 70
    -1
  9
$DIMLWE
 70
    -1
  9
$DIMTMOVE
 70
     0
  9
$LUNITS
 70
     2
  9
$LUPREC
 70
     4
  9
$SKETCHINC
 40
1.0
  9
$FILLETRAD
 40
3.0
  9
$AUNITS
 70
     0
  9
$AUPREC
 70
     0
  9
$MENU
  1
.
  9
$ELEVATION
 40
0.0
  9
$PELEVATION
 40
0.0
  9
$THICKNESS
 40
0.0
  9
$LIMCHECK
 70
     0
  9
$CHAMFERA
 40
10.0
  9
$CHAMFERB
 40
10.0
  9
$CHAMFERC
 40
20.0
  9
$CHAMFERD
 40
0.0
  9
$SKPOLY
 70
     0
  9
$TDCREATE
 40
2453504.419622211
  9
$TDUCREATE
 40
2453504.377955544
  9
$TDUPDATE
 40
2453977.583672048
  9
$TDUUPDATE
 40
2453977.542005382
  9
$TDINDWG
 40
0.0019348611
  9
$TDUSRTIMER
 40
0.0019348611
  9
$USRTIMER
 70
     1
  9
$ANGBASE
 50
0.0
  9
$ANGDIR
 70
     0
  9
$PDMODE
 70
     0
  9
$PDSIZE
 40
0.0
  9
$PLINEWID
 40
0.0
  9
$SPLFRAME
 70
     0
  9
$SPLINETYPE
 70
     6
  9
$SPLINESEGS
 70
     8
  9
$HANDSEED
  5
F09
  9
$SURFTAB1
 70
     6
  9
$SURFTAB2
 70
     6
  9
$SURFTYPE
 70
     6
  9
$SURFU
 70
     6
  9
$SURFV
 70
     6
  9
$UCSBASE
  2

  9
$UCSNAME
  2

  9
$UCSORG
 10
0.0
 20
0.0
 30
0.0
  9
$UCSXDIR
 10
1.0
 20
0.0
 30
0.0
  9
$UCSYDIR
 10
0.0
 20
1.0
 30
0.0
  9
$UCSORTHOREF
  2

  9
$UCSORTHOVIEW
 70
     0
  9
$UCSORGTOP
 10
0.0
 20
0.0
 30
0.0
  9
$UCSORGBOTTOM
 10
0.0
 20
0.0
 30
0.0
  9
$UCSORGLEFT
 10
0.0
 20
0.0
 30
0.0
  9
$UCSORGRIGHT
 10
0.0
 20
0.0
 30
0.0
  9
$UCSORGFRONT
 10
0.0
 20
0.0
 30
0.0
  9
$UCSORGBACK
 10
0.0
 20
0.0
 30
0.0
  9
$PUCSBASE
  2

  9
$PUCSNAME
  2

  9
$PUCSORG
 10
0.0
 20
0.0
 30
0.0
  9
$PUCSXDIR
 10
1.0
 20
0.0
 30
0.0
  9
$PUCSYDIR
 10
0.0
 20
1.0
 30
0.0
  9
$PUCSORTHOREF
  2

  9
$PUCSORTHOVIEW
 70
     0
  9
$PUCSORGTOP
 10
0.0
 20
0.0
 30
0.0
  9
$PUCSORGBOTTOM
 10
0.0
 20
0.0
 30
0.0
  9
$PUCSORGLEFT
 10
0.0
 20
0.0
 30
0.0
  9
$PUCSORGRIGHT
 10
0.0
 20
0.0
 30
0.0
  9
$PUCSORGFRONT
 10
0.0
 20
0.0
 30
0.0
  9
$PUCSORGBACK
 10
0.0
 20
0.0
 30
0.0
  9
$USERI1
 70
     0
  9
$USERI2
 70
     0
  9
$USERI3
 70
     0
  9
$USERI4
 70
     0
  9
$USERI5
 70
     0
  9
$USERR1
 40
0.0
  9
$USERR2
 40
0.0
  9
$USERR3
 40
0.0
  9
$USERR4
 40
0.0
  9
$USERR5
 40
0.0
  9
$WORLDVIEW
 70
     1
  9
$SHADEDGE
 70
     3
  9
$SHADEDIF
 70
    70
  9
$TILEMODE
 70
     1
  9
$MAXACTVP
 70
    64
  9
$PINSBASE
 10
0.0
 20
0.0
 30
0.0
  9
$PLIMCHECK
 70
     0
  9
$PEXTMIN
 10
1.000000000000000E+20
 20
1.000000000000000E+20
 30
1.000000000000000E+20
  9
$PEXTMAX
 10
-1.000000000000000E+20
 20
-1.000000000000000E+20
 30
-1.000000000000000E+20
  9
$PLIMMIN
 10
0.0
 20
0.0
  9
$PLIMMAX
 10
420.0
 20
297.0
  9
$UNITMODE
 70
     0
  9
$VISRETAIN
 70
     1
  9
$PLINEGEN
 70
     0
  9
$PSLTSCALE
 70
     1
  9
$TREEDEPTH
 70
  3020
  9
$CMLSTYLE
  2
Standard
  9
$CMLJUST
 70
     0
  9
$CMLSCALE
 40
20.0
  9
$PROXYGRAPHICS
 70
     1
  9
$MEASUREMENT
 70
     1
  9
$CELWEIGHT
370
    -1
  9
$ENDCAPS
280
     0
  9
$JOINSTYLE
280
     0
  9
$LWDISPLAY
290
     0
  9
$INSUNITS
 70
     6
  9
$HYPERLINKBASE
  1

  9
$STYLESHEET
  1
monochrome.ctb
  9
$XEDIT
290
     1
  9
$CEPSNTYPE
380
     0
  9
$PSTYLEMODE
290
     1
  9
$FINGERPRINTGUID
  2
{B98A73AA-52AA-4C10-B469-C0E7150AC31F}
  9
$VERSIONGUID
  2
{297C9BF0-E5E1-46CA-8526-1BC0DABDC0DC}
  9
$EXTNAMES
290
     1
  9
$PSVPSCALE
 40
0.0
  9
$OLESTARTUP
290
     0
  0
ENDSEC
  0
SECTION
  2
CLASSES
  0
CLASS
  1
ACDBDICTIONARYWDFLT
  2
AcDbDictionaryWithDefault
  3
ObjectDBX Classes
 90
        0
280
     0
281
     0
  0
CLASS
  1
ACDBPLACEHOLDER
  2
AcDbPlaceHolder
  3
ObjectDBX Classes
 90
        0
280
     0
281
     0
  0
CLASS
  1
LAYOUT
  2
AcDbLayout
  3
ObjectDBX Classes
 90
        0
280
     0
281
     0
  0
CLASS
  1
DICTIONARYVAR
  2
AcDbDictionaryVar
  3
ObjectDBX Classes
 90
        0
280
     0
281
     0
  0
CLASS
  1
DIMASSOC
  2
AcDbDimAssoc
  3
"AcDbDimAssoc|Product Desc:     AcDim ARX App For Dimension|Company:          Autodesk, Inc.|WEB Address:      www.autodesk.com"
 90
    32768
280
     0
281
     0
  0
CLASS
  1
TABLESTYLE
  2
AcDbTableStyle
  3
ObjectDBX Classes
 90
     2047
280
     0
281
     0
  0
ENDSEC
  0
SECTION
  2
TABLES
  0
TABLE
  2
VPORT
  5
8
330
0
100
AcDbSymbolTable
 70
     2
  0
VPORT
  5
F01
330
8
100
AcDbSymbolTableRecord
100
AcDbViewportTableRecord
  2
*Active
 70
     0
 10
0.0
 20
0.0
 11
1.0
 21
1.0
 12
50.71112829715303
 22
885.3517270279242
 13
0.0
 23
0.0
 14
10.0
 24
10.0
 15
10.0
 25
10.0
 16
0.0
 26
0.0
 36
1.0
 17
0.0
 27
0.0
 37
0.0
 40
1.345394219877753
 41
1.593939393939393
 42
50.0
 43
0.0
 44
0.0
 50
0.0
 51
0.0
 71
     0
 72
   100
 73
     1
 74
     2
 75
     0
 76
     0
 77
     0
 78
     0
281
     0
 65
     1
110
0.0
120
0.0
130
0.0
111
1.0
121
0.0
131
0.0
112
0.0
122
1.0
132
0.0
 79
     0
146
0.0
  0
ENDTAB
  0
TABLE
  2
LTYPE
  5
5
330
0
100
AcDbSymbolTable
 70
     3
  0
LTYPE
  5
14
330
5
100
AcDbSymbolTableRecord
100
AcDbLinetypeTableRecord
  2
ByBlock
 70
     0
  3

 72
    65
 73
     0
 40
0.0
  0
LTYPE
  5
15
330
5
100
AcDbSymbolTableRecord
100
AcDbLinetypeTableRecord
  2
ByLayer
 70
     0
  3

 72
    65
 73
     0
 40
0.0
  0
LTYPE
  5
16
330
5
100
AcDbSymbolTableRecord
100
AcDbLinetypeTableRecord
  2
Continuous
 70
     0
  3
Solid line
 72
    65
 73
     0
 40
0.0
  0
LTYPE
  5
2D
330
5
100
AcDbSymbolTableRecord
100
AcDbLinetypeTableRecord
  2
DASHDOT
 70
     0
  3
Dash dot __ . __ . __ . __ . __ . __ . __ . __
 72
    65
 73
     4
 40
25.4
 49
12.7
 74
     0
 49
-6.349999999999999
 74
     0
 49
0.0
 74
     0
 49
-6.349999999999999
 74
     0
  0
LTYPE
  5
2E
330
5
100
AcDbSymbolTableRecord
100
AcDbLinetypeTableRecord
  2
HIDDEN
 70
     0
  3
Hidden __ __ __ __ __ __ __ __ __ __ __ __ __ _
 72
    65
 73
     2
 40
9.524999999999998
 49
6.349999999999999
 74
     0
 49
-3.174999999999999
 74
     0
  0
ENDTAB
  0
TABLE
  2
LAYER
  5
2
330
0
100
AcDbSymbolTable
 70
    16
  0
LAYER
  5
10
330
2
100
AcDbSymbolTableRecord
100
AcDbLayerTableRecord
  2
0
 70
     0
 62
     7
  6
Continuous
370
    -3
390
F
  0
LAYER
  5
2F
330
2
100
AcDbSymbolTableRecord
100
AcDbLayerTableRecord
  2
1
 70
     0
 62
     1
  6
Continuous
370
    -3
390
F
  0
LAYER
  5
30
330
2
100
AcDbSymbolTableRecord
100
AcDbLayerTableRecord
  2
2
 70
     0
 62
     2
  6
Continuous
370
    -3
390
F
  0
LAYER
  5
31
330
2
100
AcDbSymbolTableRecord
100
AcDbLayerTableRecord
  2
3
 70
     0
 62
     3
  6
Continuous
370
    -3
390
F
  0
LAYER
  5
32
330
2
100
AcDbSymbolTableRecord
100
AcDbLayerTableRecord
  2
4
 70
     0
 62
     4
  6
Continuous
370
    -3
390
F
  0
LAYER
  5
33
330
2
100
AcDbSymbolTableRecord
100
AcDbLayerTableRecord
  2
5
 70
     0
 62
     5
  6
Continuous
370
    -3
390
F
  0
LAYER
  5
34
330
2
100
AcDbSymbolTableRecord
100
AcDbLayerTableRecord
  2
6
 70
     0
 62
     6
  6
Continuous
370
    -3
390
F
  0
LAYER
  5
35
330
2
100
AcDbSymbolTableRecord
100
AcDbLayerTableRecord
  2
7
 70
     0
 62
     7
  6
Continuous
370
    -3
390
F
  0
LAYER
  5
36
330
2
100
AcDbSymbolTableRecord
100
AcDbLayerTableRecord
  2
cen
 70
     0
 62
     7
  6
DASHDOT
370
    -3
390
F
  0
LAYER
  5
37
330
2
100
AcDbSymbolTableRecord
100
AcDbLayerTableRecord
  2
hid
 70
     0
 62
     7
  6
HIDDEN
370
    -3
390
F
  0
LAYER
  5
5D6
330
2
100
AcDbSymbolTableRecord
100
AcDbLayerTableRecord
  2
hatch
 70
     0
 62
     9
  6
Continuous
370
    -3
390
F
  0
LAYER
  5
8AF
330
2
100
AcDbSymbolTableRecord
100
AcDbLayerTableRecord
  2
9
 70
     0
 62
     9
  6
Continuous
370
    -3
390
F
  0
LAYER
  5
8F8
330
2
100
AcDbSymbolTableRecord
100
AcDbLayerTableRecord
  2
leg fin
 70
     0
 62
     9
  6
Continuous
370
    -3
390
F
  0
LAYER
  5
91D
330
2
100
AcDbSymbolTableRecord
100
AcDbLayerTableRecord
  2
cotas
 70
     0
 62
     1
  6
Continuous
370
    -3
390
F
  0
LAYER
  5
92F
330
2
100
AcDbSymbolTableRecord
100
AcDbLayerTableRecord
  2
Defpoints
 70
     0
 62
     7
  6
Continuous
290
     0
370
    -3
390
F
  0
LAYER
  5
BA5
330
2
100
AcDbSymbolTableRecord
100
AcDbLayerTableRecord
  2
SANINDUSA
 70
     0
 62
     3
  6
Continuous
370
    -3
390
F
  0
ENDTAB
  0
TABLE
  2
STYLE
  5
3
330
0
100
AcDbSymbolTable
 70
     3
  0
STYLE
  5
11
330
3
100
AcDbSymbolTableRecord
100
AcDbTextStyleTableRecord
  2
Standard
 70
     0
 40
0.0
 41
1.0
 50
0.0
 71
     0
 42
2.5
  3
Avgardn.ttf
  4

1001
ACAD
1000
AvantGarde Bk BT
1071
       34
  0
STYLE
  5
2C
330
3
100
AcDbSymbolTableRecord
100
AcDbTextStyleTableRecord
  2

 70
     1
 40
0.0
 41
1.0
 50
0.0
 71
     0
 42
2.5
  3
ltypeshp.shx
  4

  0
STYLE
  5
91F
330
3
100
AcDbSymbolTableRecord
100
AcDbTextStyleTableRecord
  2
SANINDUSA
 70
     0
 40
0.0
 41
1.0
 50
0.0
 71
     0
 42
2.5
  3
verdana.TTF
  4

1001
ACAD
1000
Verdana
1071
       34
  0
ENDTAB
  0
TABLE
  2
VIEW
  5
6
330
0
100
AcDbSymbolTable
 70
     0
  0
ENDTAB
  0
TABLE
  2
UCS
  5
7
330
0
100
AcDbSymbolTable
 70
     0
  0
ENDTAB
  0
TABLE
  2
APPID
  5
9
330
0
100
AcDbSymbolTable
 70
     2
  0
APPID
  5
12
330
9
100
AcDbSymbolTableRecord
100
AcDbRegAppTableRecord
  2
ACAD
 70
     0
  0
APPID
  5
3A
330
9
100
AcDbSymbolTableRecord
100
AcDbRegAppTableRecord
  2
DCO15
 70
     0
  0
ENDTAB
  0
TABLE
  2
DIMSTYLE
  5
A
330
0
100
AcDbSymbolTable
 70
     2
100
AcDbDimStyleTable
 71
     1
340
921
  0
DIMSTYLE
105
45
330
A
100
AcDbSymbolTableRecord
100
AcDbDimStyleTableRecord
  2
STANDARD
 70
     0
289
     0
340
11
  0
DIMSTYLE
105
921
330
A
100
AcDbSymbolTableRecord
100
AcDbDimStyleTableRecord
  2
SANINDUSA
 70
     0
 41
2.0
 42
1.0
 43
1.0
 44
1.0
 73
     0
 74
     0
 77
     1
 78
     8
140
2.0
141
0.0
143
0.03937007874016
147
1.0
171
     3
172
     1
176
   256
177
   256
178
   256
179
     1
271
     1
272
     1
274
     3
278
    44
283
     0
284
     8
340
91F
371
    -1
372
    -1
  0
ENDTAB
  0
TABLE
  2
BLOCK_RECORD
  5
1
330
0
100
AcDbSymbolTable
 70
    34
  0
BLOCK_RECORD
  5
1F
330
1
100
AcDbSymbolTableRecord
100
AcDbBlockTableRecord
  2
*Model_Space
340
22
  0
BLOCK_RECORD
  5
1B
330
1
100
AcDbSymbolTableRecord
100
AcDbBlockTableRecord
  2
*Paper_Space
340
1E
  0
BLOCK_RECORD
  5
23
330
1
100
AcDbSymbolTableRecord
100
AcDbBlockTableRecord
  2
*Paper_Space0
340
26
  0
BLOCK_RECORD
  5
919
330
1
100
AcDbSymbolTableRecord
100
AcDbBlockTableRecord
  2
_DotSmall
340
0
  0
BLOCK_RECORD
  5
922
330
1
100
AcDbSymbolTableRecord
100
AcDbBlockTableRecord
  2
base para cotas
340
0
310
2800000020000000200000000100080000000000000400000000000000000000000000000000000000000000000080000080000000808000800000008000800080800000C0C0C000C0DCC000F0CAA6000020400000206000002080000020A0000020C0000020E00000400000004020000040400000406000004080000040A0
310
000040C0000040E00000600000006020000060400000606000006080000060A0000060C0000060E00000800000008020000080400000806000008080000080A0000080C0000080E00000A0000000A0200000A0400000A0600000A0800000A0A00000A0C00000A0E00000C0000000C0200000C0400000C0600000C0800000C0
310
A00000C0C00000C0E00000E0000000E0200000E0400000E0600000E0800000E0A00000E0C00000E0E00040000000400020004000400040006000400080004000A0004000C0004000E00040200000402020004020400040206000402080004020A0004020C0004020E000404000004040200040404000404060004040800040
310
40A0004040C0004040E00040600000406020004060400040606000406080004060A0004060C0004060E00040800000408020004080400040806000408080004080A0004080C0004080E00040A0000040A0200040A0400040A0600040A0800040A0A00040A0C00040A0E00040C0000040C0200040C0400040C0600040C08000
310
40C0A00040C0C00040C0E00040E0000040E0200040E0400040E0600040E0800040E0A00040E0C00040E0E00080000000800020008000400080006000800080008000A0008000C0008000E00080200000802020008020400080206000802080008020A0008020C0008020E00080400000804020008040400080406000804080
310
008040A0008040C0008040E00080600000806020008060400080606000806080008060A0008060C0008060E00080800000808020008080400080806000808080008080A0008080C0008080E00080A0000080A0200080A0400080A0600080A0800080A0A00080A0C00080A0E00080C0000080C0200080C0400080C0600080C0
310
800080C0A00080C0C00080C0E00080E0000080E0200080E0400080E0600080E0800080E0A00080E0C00080E0E000C0000000C0002000C0004000C0006000C0008000C000A000C000C000C000E000C0200000C0202000C0204000C0206000C0208000C020A000C020C000C020E000C0400000C0402000C0404000C0406000C0
310
408000C040A000C040C000C040E000C0600000C0602000C0604000C0606000C0608000C060A000C060C000C060E000C0800000C0802000C0804000C0806000C0808000C080A000C080C000C080E000C0A00000C0A02000C0A04000C0A06000C0A08000C0A0A000C0A0C000C0A0E000C0C00000C0C02000C0C04000C0C06000
310
C0C08000C0C0A000F0FBFF00A4A0A000808080000000FF0000FF000000FFFF00FF000000FF00FF00FFFF0000FFFFFF00A4A4A4A4A4A4A4A4A4A4A4A4A4A4A4A4A4A4A4A4A4A4A4A4A4A4A4A4A4A4A4A4A4A4A4A4A4A4A4A4A4A4A4A4A4A4A4A4A4A4A4A4A4A4A4A4A4A4A4A4A4A4A4A4A4A4A4A4A4A4A4A4A4A4A4A4A4A4A4
310
A4A4A4A4A4A4A4A4A4A4A4A4A4A4A4A4A4A4A4A4A4A4A4A4A4A4A4A4A4A4A4A4A4A4A4A4A4A4A4A4A4A4A4A4A4A4A4A4A4A4A4A4A4A4A4A4A4A4A4A4A4A4A4A4A4A4A4A4A4A4A4A4A4A4A4A4A4A4A4A4A4A4A4A4A4A4A4A4A4A4A4A4A4A4A4A4A4A4A4A4A4A4A4A4A4A4A4A4A4A4A4A4A4A4A4A4A4A4A4A4A4A4A4A4A4A4A4
310
A4A4A4A4A4A4A4A4A4A4A4A4A4A4A4A4A4A4A4A4A4A4A4A4A4A4A4A4A4A4A4A4A4A4A4A4A4A4A4A4A4A4A4A4A4A4A4A4A4A4A4A4A4A4A4A4A4A4A4A4A4A4A4A4A4A4A4A4A4A4A4A4A4A4A4A4A4A4A4A4A4A4A4A4A4A4A4A4A4A4A4A4A4A4A4A4A4A4A4A4A4A4A4A4A4A4A4A4A4A4A4A4A4A4A4A4A4A4A4A4A4A4A4A4A4A4A4
310
A4A4A4A4A4A4A4A4A4A4A4A4A4A4A4A4A4A4A4A4A4A4A4A4A4A4A4A4A4A4A4A4A4A4A4A4A4A4A4A4A4A4A4A4A4A4A4A4A4A4A4A4A4A4A4A4A4A4A4A4A4A4A4A4A4A4A4A4A4A4A4A4A4A4A4A4A4A4A4A4A4A4A4A4A4A4A4A4A4A4A4A4A4A4A4A4A4A4A4A4A4A4A4A4A4A4A4A4A4A4A4A4A4A4A4A4F9F9F9F9F9F9F9F9F9F9F9
310
F9F9F9F9F9F9F9F9F9F9F9F9F9F9F9F9F9F9F9A4A4F9F9F9F9F9F9F9F9F9F9F9F9F9F9F9F9F9F9F9F9F9F9F9F9F9F9F9F9F9F9A4A4F9F9F9F9F9F9F9F9F9F9F9F9F9F9F9F9F9F9F9F9F9F9F9F9F9F9F9F9F9F9A4A4F9A4A4A4A4A4A4A4A4A4A4A4A4A4A4A4A4A4A4A4A4A4A4A4A4A4A4A4A4F9A4A4A4A4A4A4A4A4A4A4A4A4
310
A4A4A4A4A4A4A4A4A4A4A4A4A4A4A4A4A4A4A4A4A4A4A4A4A4A4A4A4A4A4A4A4A4A4A4A4A4A4A4A4A4A4A4A4A4A4A4A4A4A4A4A4A4A4A4A4A4A4A4A4A4A4A4A4A4A4A4A4A4A4A4A4A4A4A4A4A4A4A4A4A4A4A4A4A4A4A4A4A4A4A4A4A4A4A4A4A4A4A4A4A4A4A4A4A4A4A4A4A4A4A4A4A4A4A4A4A4A4A4A4A4A4A4A4A4A4A4
310
A4A4A4A4A4A4A4A4A4A4A4A4A4A4A4A4A4A4A4A4A4A4A4A4A4A4A4A4A4A4A4A4A4A4A4A4A4A4A4A4A4A4A4A4A4A4A4A4A4A4A4A4A4A4A4A4A4A4A4A4A4A4A4A4A4A4A4A4A4A4A4A4A4A4A4A4A4A4A4A4A4A4A4A4A4A4A4A4A4A4A4A4A4A4A4A4A4A4A4A4A4A4A4A4A4A4A4A4A4A4A4A4A4A4A4A4A4A4A4A4A4A4A4A4A4A4A4
310
A4A4A4A4A4A4A4A4A4A4A4A4A4A4A4A4A4A4A4A4A4A4A4A4A4A4A4A4A4A4A4A4A4A4A4A4A4A4A4A4A4A4A4A4A4A4A4A4A4A4A4A4A4A4A4A4A4A4A4A4A4A4A4A4A4A4A4A4A4A4A4A4A4A4A4A4A4A4A4A4A4A4A4A4A4A4A4A4A4A4A4A4A4A4A4A4A4A4A4A4A4A4A4A4A4A4A4A4A4A4A4A4A4A4A4A4A4A4A4A4A4A4A4A4A4A4A4
310
A4A4A4A4A4A4A4A4A4A4A4A4A4A4A4A4A4A4A4A4A4A4A4A4A4A4A4A4A4A4A4A4A4A4A4A4A4A4A4A4A4A4A4A4A4A4A4A4A4A4A4A4A4A4A4A4
1001
ACAD
1000
DesignCenter Data
1002
{
1070
     1
1070
     4
1002
}
  0
BLOCK_RECORD
  5
AA8
330
1
100
AcDbSymbolTableRecord
100
AcDbBlockTableRecord
  2
_CLOSED
340
0
  0
ENDTAB
  0
ENDSEC
  0
SECTION
  2
BLOCKS
  0
BLOCK
  5
20
330
1F
100
AcDbEntity
  8
0
100
AcDbBlockBegin
  2
*Model_Space
 70
     0
 10
0.0
 20
0.0
 30
0.0
  3
*Model_Space
  1

  0
ENDBLK
  5
21
330
1F
100
AcDbEntity
  8
0
100
AcDbBlockEnd
  0
BLOCK
  5
1C
330
1B
100
AcDbEntity
 67
     1
  8
0
100
AcDbBlockBegin
  2
*Paper_Space
 70
     0
 10
0.0
 20
0.0
 30
0.0
  3
*Paper_Space
  1

  0
ENDBLK
  5
1D
330
1B
100
AcDbEntity
 67
     1
  8
0
100
AcDbBlockEnd
  0
BLOCK
  5
24
330
23
100
AcDbEntity
 67
     1
  8
0
100
AcDbBlockBegin
  2
*Paper_Space0
 70
     0
 10
0.0
 20
0.0
 30
0.0
  3
*Paper_Space0
  1

  0
ENDBLK
  5
25
330
23
100
AcDbEntity
 67
     1
  8
0
100
AcDbBlockEnd
  0
BLOCK
  5
91B
330
919
100
AcDbEntity
  8
0
100
AcDbBlockBegin
  2
_DotSmall
 70
     0
 10
0.0
 20
0.0
 30
0.0
  3
_DotSmall
  1

  0
LWPOLYLINE
  5
91A
330
919
100
AcDbEntity
  8
0
  6
ByBlock
 62
     0
100
AcDbPolyline
 90
        2
 70
     1
 43
0.5
 10
-0.0625
 20
0.0
 42
1.0
 10
0.0625
 20
0.0
 42
1.0
  0
ENDBLK
  5
91C
330
919
100
AcDbEntity
  8
0
100
AcDbBlockEnd
  0
BLOCK
  5
92A
330
922
100
AcDbEntity
  8
0
100
AcDbBlockBegin
  2
base para cotas
 70
     0
 10
0.0
 20
0.0
 30
0.0
  3
base para cotas
  1

  0
LINE
  5
B36
330
922
100
AcDbEntity
  8
cotas
100
AcDbLine
 10
0.0
 20
-30.0
 30
0.0
 11
327.1260136525398
 21
-30.0
 31
0.0
  0
LINE
  5
B37
330
922
100
AcDbEntity
  8
cotas
100
AcDbLine
 10
0.0
 20
-25.0
 30
0.0
 11
327.1260136525398
 21
-25.0
 31
0.0
  0
LINE
  5
B38
330
922
100
AcDbEntity
  8
cotas
100
AcDbLine
 10
0.0
 20
-20.0
 30
0.0
 11
327.1260136525398
 21
-20.0
 31
0.0
  0
LINE
  5
B39
330
922
100
AcDbEntity
  8
cotas
100
AcDbLine
 10
0.0
 20
-15.0
 30
0.0
 11
327.1260136525398
 21
-15.0
 31
0.0
  0
LINE
  5
B3A
330
922
100
AcDbEntity
  8
cotas
100
AcDbLine
 10
0.0
 20
-10.0
 30
0.0
 11
327.1260136525398
 21
-10.0
 31
0.0
  0
LINE
  5
B3B
330
922
100
AcDbEntity
  8
cotas
100
AcDbLine
 10
0.0
 20
0.0
 30
0.0
 11
0.0
 21
-30.0
 31
0.0
  0
LINE
  5
B3C
330
922
100
AcDbEntity
  8
cotas
100
AcDbLine
 10
327.1260136525398
 20
-30.0
 30
0.0
 11
327.1260136525398
 21
0.0
 31
0.0
  0
ENDBLK
  5
92B
330
922
100
AcDbEntity
  8
0
100
AcDbBlockEnd
  0
BLOCK
  5
AAD
330
AA8
100
AcDbEntity
  8
0
100
AcDbBlockBegin
  2
_CLOSED
 70
     0
 10
0.0
 20
0.0
 30
0.0
  3
_CLOSED
  1

  0
LINE
  5
AA9
330
AA8
100
AcDbEntity
  8
0
100
AcDbLine
 10
-1.0
 20
0.166667
 30
0.0
 11
0.0
 21
0.0
 31
0.0
  0
LINE
  5
AAA
330
AA8
100
AcDbEntity
  8
0
100
AcDbLine
 10
0.0
 20
0.0
 30
0.0
 11
-1.0
 21
-0.166667
 31
0.0
  0
LINE
  5
AAB
330
AA8
100
AcDbEntity
  8
0
100
AcDbLine
 10
-1.0
 20
0.166667
 30
0.0
 11
-1.0
 21
-0.166667
 31
0.0
  0
LINE
  5
AAC
330
AA8
100
AcDbEntity
  8
0
100
AcDbLine
 10
0.0
 20
0.0
 30
0.0
 11
-1.0
 21
0.0
 31
0.0
  0
ENDBLK
  5
AAE
330
AA8
100
AcDbEntity
  8
0
100
AcDbBlockEnd
  0
ENDSEC
  0
SECTION
  2
ENTITIES
  0
CIRCLE
  5
D40
330
1F
100
AcDbEntity
  8
SANINDUSA
100
AcDbCircle
 10
49.85044729972693
 20
885.3517270279242
 30
0.0
 40
0.2074999999999998
  0
CIRCLE
  5
D43
330
1F
100
AcDbEntity
  8
SANINDUSA
100
AcDbCircle
 10
49.85044729972693
 20
885.3517270279242
 30
0.0
 40
0.1824999999999999
  0
CIRCLE
  5
D46
330
1F
100
AcDbEntity
  8
SANINDUSA
100
AcDbCircle
 10
49.85044729972693
 20
885.3517270279242
 30
0.0
 40
0.0235
  0
CIRCLE
  5
D48
330
1F
100
AcDbEntity
  8
SANINDUSA
100
AcDbCircle
 10
49.85044729972693
 20
885.3517270279242
 30
0.0
 40
0.0403867721001458
  0
ARC
  5
D4E
330
1F
100
AcDbEntity
  8
SANINDUSA
100
AcDbCircle
 10
51.00489783495181
 20
885.436327988107
 30
0.0
 40
0.2
100
AcDbArc
 50
281.5109439208753
 51
336.7405354293854
  0
LINE
  5
D51
330
1F
100
AcDbEntity
  8
SANINDUSA
100
AcDbLine
 10
51.20681104482783
 20
885.3603743851449
 30
0.0
 11
50.79581104482783
 21
885.3603743851449
 31
0.0
  0
LINE
  5
D52
330
1F
100
AcDbEntity
  8
SANINDUSA
100
AcDbLine
 10
51.20881104482783
 20
885.3723743851448
 30
0.0
 11
50.79381104482783
 21
885.3723743851448
 31
0.0
  0
LWPOLYLINE
  5
D57
330
1F
100
AcDbEntity
  8
SANINDUSA
100
AcDbPolyline
 90
       28
 70
   128
 43
0.0
 10
49.84845954367931
 20
885.5079697052486
 10
49.84471148957096
 20
885.5086854366506
 10
49.84159104048352
 20
885.5100399619633
 10
49.83944742104469
 20
885.5118883410744
 10
49.83853130989878
 20
885.5140315723966
 10
49.83857982674948
 20
885.5151406437691
 10
49.83896720839389
 20
885.5162291786259
 10
49.83968881457653
 20
885.5172672693038
 10
49.8407200333618
 20
885.5182245596513
 10
49.8420311522705
 20
885.5190692127806
 10
49.84358499154449
 20
885.519782029119
 10
49.84532732273797
 20
885.5203365303788
 10
49.84721660068963
 20
885.52072432166
 10
49.85118934056616
 20
885.5209551196125
 10
49.85361208931684
 20
885.5207343350921
 10
49.85723382348934
 20
885.5198108952233
 10
49.86008865366244
 20
885.5182897671914
 10
49.86187244396648
 20
885.5163314494184
 10
49.86237420905622
 20
885.5141448159077
 10
49.8621120115393
 20
885.5130426633254
 10
49.86151552197376
 20
885.5119791646506
 10
49.86059722358151
 20
885.5109862783891
 10
49.85938646599116
 20
885.5100908818158
 10
49.85792160238596
 20
885.5093245890966
 10
49.85624159992923
 20
885.5087031709324
 10
49.85440589751149
 20
885.5082502401366
 10
49.85245703419598
 20
885.5079717581316
 10
49.84845954367931
 20
885.5079697052486
  0
ARC
  5
D5F
330
1F
100
AcDbEntity
  8
SANINDUSA
100
AcDbCircle
 10
50.99772425470384
 20
885.436327988107
 30
0.0
 40
0.2
100
AcDbArc
 50
203.2594645706149
 51
258.4890560791262
  0
LINE
  5
D60
330
1F
100
AcDbEntity
  8
SANINDUSA
100
AcDbLine
 10
50.79381104482783
 20
885.3723743851448
 30
0.0
 11
50.79381104482783
 21
885.3623743851448
 31
0.0
  0
ARC
  5
D61
330
1F
100
AcDbEntity
  8
SANINDUSA
100
AcDbCircle
 10
50.79581104482783
 20
885.3623743851448
 30
0.0
 40
0.0019999999999999
100
AcDbArc
 50
180.0
 51
270.0
  0
ARC
  5
D62
330
1F
100
AcDbEntity
  8
SANINDUSA
100
AcDbCircle
 10
50.8093854266109
 20
885.3553743851447
 30
0.0
 40
0.005
100
AcDbArc
 50
23.25946457061458
 51
90.0
  0
LINE
  5
D64
330
1F
100
AcDbEntity
  8
SANINDUSA
100
AcDbLine
 10
50.95781323396374
 20
885.2403506669103
 30
0.0
 11
51.04480885569191
 21
885.2403506669103
 31
0.0
  0
LINE
  5
D66
330
1F
100
AcDbEntity
  8
SANINDUSA
100
AcDbLine
 10
51.03532834756471
 20
885.2023743851448
 30
0.0
 11
50.96729374209094
 21
885.2023743851448
 31
0.0
  0
ARC
  5
D67
330
1F
100
AcDbEntity
  8
SANINDUSA
100
AcDbCircle
 10
50.95581768292674
 20
885.2305518008504
 30
0.0
 40
0.0100000000000001
100
AcDbArc
 50
1.000000000001761
 51
78.48905607912462
  0
ARC
  5
D68
330
1F
100
AcDbEntity
  8
SANINDUSA
100
AcDbCircle
 10
50.96729374209094
 20
885.2033743851448
 30
0.0
 40
0.0010000000000001
100
AcDbArc
 50
181.0000000006077
 51
270.0
  0
LINE
  5
D69
330
1F
100
AcDbEntity
  8
SANINDUSA
100
AcDbLine
 10
50.9658161598783
 20
885.2307263249148
 30
0.0
 11
50.96629389439579
 21
885.2033569327383
 31
0.0
  0
ARC
  5
D6A
330
1F
100
AcDbEntity
  8
SANINDUSA
100
AcDbCircle
 10
51.04680440672892
 20
885.2305518008504
 30
0.0
 40
0.0100000000000001
100
AcDbArc
 50
101.5109439208754
 51
178.9999999999982
  0
ARC
  5
D6B
330
1F
100
AcDbEntity
  8
SANINDUSA
100
AcDbCircle
 10
51.03532834756471
 20
885.2033743851448
 30
0.0
 40
0.0010000000000001
100
AcDbArc
 50
270.0
 51
358.9999999998549
  0
LINE
  5
D6C
330
1F
100
AcDbEntity
  8
SANINDUSA
100
AcDbLine
 10
51.03632819525987
 20
885.2033569327383
 30
0.0
 11
51.03680592977735
 21
885.2307263249148
 31
0.0
  0
ARC
  5
D6D
330
1F
100
AcDbEntity
  8
SANINDUSA
100
AcDbCircle
 10
51.19323666304475
 20
885.3553743851447
 30
0.0
 40
0.005
100
AcDbArc
 50
90.0
 51
156.7405354293851
  0
LINE
  5
D6E
330
1F
100
AcDbEntity
  8
SANINDUSA
100
AcDbLine
 10
51.20881104482783
 20
885.3623743851448
 30
0.0
 11
51.20881104482783
 21
885.3723743851448
 31
0.0
  0
ARC
  5
D6F
330
1F
100
AcDbEntity
  8
SANINDUSA
100
AcDbCircle
 10
51.20681104482783
 20
885.3623743851448
 30
0.0
 40
0.002
100
AcDbArc
 50
270.0
 51
0.0
  0
LINE
  5
D79
330
1F
100
AcDbEntity
  8
SANINDUSA
100
AcDbLine
 10
51.53634885187748
 20
885.2287531298568
 30
0.0
 11
51.54714903962277
 21
885.226999684103
 31
0.0
  0
LINE
  5
D7B
330
1F
100
AcDbEntity
  8
SANINDUSA
100
AcDbLine
 10
51.54652323262759
 20
885.2388730690696
 30
0.0
 11
51.53591355741923
 21
885.2477756436238
 31
0.0
  0
LINE
  5
D7C
330
1F
100
AcDbEntity
  8
SANINDUSA
100
AcDbLine
 10
51.531422522479
 20
885.2499258386384
 30
0.0
 11
51.6121960666793
 21
885.2499258386384
 31
0.0
  0
LINE
  5
D7F
330
1F
100
AcDbEntity
  8
SANINDUSA
100
AcDbLine
 10
51.53779199184227
 20
885.2023743851448
 30
0.0
 11
51.54730929457915
 21
885.2023743851448
 31
0.0
  0
LINE
  5
D83
330
1F
100
AcDbEntity
  8
SANINDUSA
100
AcDbLine
 10
51.38930929457915
 20
885.3723743851448
 30
0.0
 11
51.75430929457915
 21
885.3723743851448
 31
0.0
  0
ARC
  5
D85
330
1F
100
AcDbEntity
  8
SANINDUSA
100
AcDbCircle
 10
51.57660535649737
 20
885.4208965039765
 30
0.0
 40
0.2089982643254158
100
AcDbArc
 50
196.8329278918266
 51
261.9807262476483
  0
ARC
  5
D89
330
1F
100
AcDbEntity
  8
SANINDUSA
100
AcDbCircle
 10
50.42221009353164
 20
885.436327988107
 30
0.0
 40
0.2
100
AcDbArc
 50
281.5109439208738
 51
336.7405354293848
  0
LINE
  5
D8C
330
1F
100
AcDbEntity
  8
SANINDUSA
100
AcDbLine
 10
50.21312330340767
 20
885.3603743851449
 30
0.0
 11
50.62412330340767
 21
885.3603743851449
 31
0.0
  0
LINE
  5
D8D
330
1F
100
AcDbEntity
  8
SANINDUSA
100
AcDbLine
 10
50.21112330340766
 20
885.3723743851448
 30
0.0
 11
50.62612330340766
 21
885.3723743851448
 31
0.0
  0
ARC
  5
D92
330
1F
100
AcDbEntity
  8
SANINDUSA
100
AcDbCircle
 10
50.4234193653259
 20
885.4208965039765
 30
0.0
 40
0.215950420593894
100
AcDbArc
 50
209.6674441478741
 51
258.3407275331708
  0
LWPOLYLINE
  5
D94
330
1F
100
AcDbEntity
  8
SANINDUSA
100
AcDbPolyline
 90
       16
 70
   128
 43
0.0
 10
50.38354269509166
 20
885.2403506669103
 10
50.36901098872704
 20
885.2432735961549
 10
50.35471333098906
 20
885.2472583679553
 10
50.34076826244112
 20
885.2522805942371
 10
50.32854342129667
 20
885.257699713002
 10
50.31667120475215
 20
885.2639513523655
 10
50.30522910906379
 20
885.2709885171407
 10
50.29429463048784
 20
885.2787642121402
 10
50.28394526528054
 20
885.287231442177
 10
50.27420243805975
 20
885.296385056138
 10
50.26506877237604
 20
885.3062089742316
 10
50.25660160650937
 20
885.3166327538604
 10
50.24885827873969
 20
885.3275859524266
 10
50.24189612734696
 20
885.3389981273332
 10
50.23709186766393
 20
885.34805563771
 10
50.23276109615064
 20
885.3573488632658
  0
LINE
  5
D98
330
1F
100
AcDbEntity
  8
SANINDUSA
100
AcDbLine
 10
50.21112330340766
 20
885.3623743851448
 30
0.0
 11
50.21112330340766
 21
885.3723743851448
 31
0.0
  0
ARC
  5
D99
330
1F
100
AcDbEntity
  8
SANINDUSA
100
AcDbCircle
 10
50.21312330340767
 20
885.3623743851448
 30
0.0
 40
0.0019999999999999
100
AcDbArc
 50
180.0
 51
269.9999999999984
  0
LINE
  5
D9A
330
1F
100
AcDbEntity
  8
SANINDUSA
100
AcDbLine
 10
50.23444527683246
 20
885.3168001734848
 30
0.0
 11
50.22220502181234
 21
885.3568362436684
 31
0.0
  0
LWPOLYLINE
  5
D9C
330
1F
100
AcDbEntity
  8
SANINDUSA
100
AcDbPolyline
 90
        9
 70
   128
 43
0.0
 10
50.23577725971826
 20
885.3140085984033
 10
50.23541353281875
 20
885.3146438642083
 10
50.23520422376412
 20
885.3150212285331
 10
50.23515237378102
 20
885.3151176738741
 10
50.23510696736795
 20
885.3152041159839
 10
50.23503925398912
 20
885.3153369009167
 10
50.23490898061242
 20
885.3156071076345
 10
50.23465313356364
 20
885.3162096073559
 10
50.23444527683246
 20
885.316800173485
  0
LWPOLYLINE
  5
DA3
330
1F
100
AcDbEntity
  8
SANINDUSA
100
AcDbPolyline
 90
        9
 70
   128
 43
0.0
 10
50.22820350718578
 20
885.3603743851449
 10
50.22892327191597
 20
885.3603214764898
 10
50.22962780393265
 20
885.3601638702551
 10
50.23030219289925
 20
885.3599049019344
 10
50.23093216641051
 20
885.3595500521937
 10
50.23150439204596
 20
885.3591068308821
 10
50.23200675953011
 20
885.3585846180969
 10
50.2324286370278
 20
885.3579944656686
 10
50.23276109615064
 20
885.3573488632658
  0
ARC
  5
DA5
330
1F
100
AcDbEntity
  8
SANINDUSA
100
AcDbCircle
 10
50.21742349803252
 20
885.3553743851447
 30
0.0
 40
0.005
100
AcDbArc
 50
17.00000000000179
 51
90.0
  0
LINE
  5
DA8
330
1F
100
AcDbEntity
  8
SANINDUSA
100
AcDbLine
 10
50.46212111427175
 20
885.2403506669103
 30
0.0
 11
50.38354269509166
 21
885.2403506669103
 31
0.0
  0
LINE
  5
DAA
330
1F
100
AcDbEntity
  8
SANINDUSA
100
AcDbLine
 10
50.38460600067079
 20
885.2023743851448
 30
0.0
 11
50.45264060614366
 21
885.2023743851448
 31
0.0
  0
LWPOLYLINE
  5
DAC
330
1F
100
AcDbEntity
  8
SANINDUSA
100
AcDbPolyline
 90
        7
 70
   128
 43
0.0
 10
50.39123819232234
 20
885.2307263249148
 10
50.39123312065068
 20
885.2315316225169
 10
50.39071668870562
 20
885.2342166487048
 10
50.38951732137396
 20
885.2365432059308
 10
50.3874423536657
 20
885.2386473382086
 10
50.38435714737776
 20
885.2401533250514
 10
50.38354269509166
 20
885.2403506669103
  0
LINE
  5
DAE
330
1F
100
AcDbEntity
  8
SANINDUSA
100
AcDbLine
 10
50.390384623114
 20
885.219795598409
 30
0.0
 11
50.39123819232235
 21
885.2307263249148
 31
0.0
  0
ARC
  5
DB0
330
1F
100
AcDbEntity
  8
SANINDUSA
100
AcDbCircle
 10
50.38460600067079
 20
885.2033743851448
 30
0.0
 40
0.0010000000000001
100
AcDbArc
 50
181.0000000003731
 51
269.9999999999984
  0
LINE
  5
DB1
330
1F
100
AcDbEntity
  8
SANINDUSA
100
AcDbLine
 10
50.38360615297563
 20
885.2033569327383
 30
0.0
 11
50.38359818982335
 21
885.2038110400794
 31
0.0
  0
LWPOLYLINE
  5
DB2
330
1F
100
AcDbEntity
  8
SANINDUSA
100
AcDbPolyline
 90
        3
 70
   128
 43
0.0
 10
50.38359818982335
 20
885.2038110400791
 10
50.3838197344852
 20
885.203777380698
 10
50.38442341729957
 20
885.2036303651214
  0
ARC
  5
DB5
330
1F
100
AcDbEntity
  8
SANINDUSA
100
AcDbCircle
 10
50.37759877420167
 20
885.2037273012085
 30
0.0
 40
0.006
100
AcDbArc
 50
0.7996732769547009
 51
78.08588929363655
  0
LWPOLYLINE
  5
DB8
330
1F
100
AcDbEntity
  8
SANINDUSA
100
AcDbPolyline
 90
       10
 70
   128
 43
0.0
 10
50.38442341729957
 20
885.2036303651214
 10
50.38470880793343
 20
885.2036241223819
 10
50.38566676519934
 20
885.2041773947723
 10
50.38648099192261
 20
885.2050627443924
 10
50.38734045697221
 20
885.2063062558713
 10
50.38884305423037
 20
885.2093582848288
 10
50.38992522554403
 20
885.2129745123034
 10
50.39028372958241
 20
885.2151810251227
 10
50.39044004456747
 20
885.217464453391
 10
50.390384623114
 20
885.219795598409
  0
ARC
  5
DBB
330
1F
100
AcDbEntity
  8
SANINDUSA
100
AcDbCircle
 10
50.46411666530875
 20
885.2305518008504
 30
0.0
 40
0.01
100
AcDbArc
 50
101.5109439208754
 51
178.9999999999982
  0
ARC
  5
DBC
330
1F
100
AcDbEntity
  8
SANINDUSA
100
AcDbCircle
 10
50.45264060614456
 20
885.2033743851448
 30
0.0
 40
0.0010000000000001
100
AcDbArc
 50
269.9999999999984
 51
358.9999999996203
  0
LINE
  5
DBD
330
1F
100
AcDbEntity
  8
SANINDUSA
100
AcDbLine
 10
50.45411818835719
 20
885.2307263249148
 30
0.0
 11
50.45364045383971
 21
885.2033569327383
 31
0.0
  0
LINE
  5
DC1
330
1F
100
AcDbEntity
  8
SANINDUSA
100
AcDbLine
 10
51.37656199214064
 20
885.3603743851449
 30
0.0
 11
51.38320615329386
 21
885.3603743851449
 31
0.0
  0
LINE
  5
DC2
330
1F
100
AcDbEntity
  8
SANINDUSA
100
AcDbLine
 10
51.38930929457915
 20
885.3723743851448
 30
0.0
 11
51.37930929457915
 21
885.3723743851448
 31
0.0
  0
LINE
  5
DC3
330
1F
100
AcDbEntity
  8
SANINDUSA
100
AcDbLine
 10
51.37539101298383
 20
885.3568362436684
 30
0.0
 11
51.38760271168417
 21
885.3168935769982
 31
0.0
  0
ARC
  5
DC4
330
1F
100
AcDbEntity
  8
SANINDUSA
100
AcDbCircle
 10
51.57660535649737
 20
885.4208965039765
 30
0.0
 40
0.215950420593894
100
AcDbArc
 50
209.3927756192589
 51
258.0858892938494
  0
LINE
  5
DC5
330
1F
100
AcDbEntity
  8
SANINDUSA
100
AcDbLine
 10
51.37430929457915
 20
885.3723743851448
 30
0.0
 11
51.36430929457915
 21
885.3723743851448
 31
0.0
  0
ARC
  5
DC6
330
1F
100
AcDbEntity
  8
SANINDUSA
100
AcDbCircle
 10
51.36630929457915
 20
885.3623743851448
 30
0.0
 40
0.0020000000000002
100
AcDbArc
 50
180.0
 51
270.0
  0
LINE
  5
DC7
330
1F
100
AcDbEntity
  8
SANINDUSA
100
AcDbLine
 10
51.36630929457915
 20
885.3603743851449
 30
0.0
 11
51.370609489204
 21
885.3603743851449
 31
0.0
  0
LINE
  5
DC8
330
1F
100
AcDbEntity
  8
SANINDUSA
100
AcDbLine
 10
51.36430929457915
 20
885.3723743851448
 30
0.0
 11
51.36430929457915
 21
885.3623743851448
 31
0.0
  0
LINE
  5
DC9
330
1F
100
AcDbEntity
  8
SANINDUSA
100
AcDbLine
 10
51.37430929457915
 20
885.3723743851448
 30
0.0
 11
51.37930929457915
 21
885.3723743851448
 31
0.0
  0
ARC
  5
DCA
330
1F
100
AcDbEntity
  8
SANINDUSA
100
AcDbCircle
 10
51.37680929457915
 20
885.3783743851449
 30
0.0
 40
0.0065000000000003
100
AcDbArc
 50
247.3801350519579
 51
292.6198649480406
  0
ARC
  5
DCB
330
1F
100
AcDbEntity
  8
SANINDUSA
100
AcDbCircle
 10
51.370609489204
 20
885.3553743851447
 30
0.0
 40
0.0050000000000001
100
AcDbArc
 50
17.00000000000179
 51
90.0
  0
ARC
  5
DCC
330
1F
100
AcDbEntity
  8
SANINDUSA
100
AcDbCircle
 10
51.56822250445517
 20
885.436327988107
 30
0.0
 40
0.19
100
AcDbArc
 50
216.585377618315
 51
258.8321364601081
  0
ARC
  5
DCD
330
1F
100
AcDbEntity
  8
SANINDUSA
100
AcDbCircle
 10
51.56822250445517
 20
885.436327988107
 30
0.0
 40
0.2
100
AcDbArc
 50
216.7281708454986
 51
260.7783048943429
  0
LINE
  5
DCE
330
1F
100
AcDbEntity
  8
SANINDUSA
100
AcDbLine
 10
51.53617151317913
 20
885.2389128570806
 30
0.0
 11
51.53634885187748
 21
885.2287531298568
 31
0.0
  0
LINE
  5
DD0
330
1F
100
AcDbEntity
  8
SANINDUSA
100
AcDbLine
 10
51.53678385154409
 20
885.2038320156472
 30
0.0
 11
51.53679214414711
 21
885.2033569327383
 31
0.0
  0
ARC
  5
DD1
330
1F
100
AcDbEntity
  8
SANINDUSA
100
AcDbCircle
 10
51.53779199184227
 20
885.2033743851448
 30
0.0
 40
0.0009999999999999
100
AcDbArc
 50
181.000000000145
 51
270.0
  0
ARC
  5
DD2
330
1F
100
AcDbEntity
  8
SANINDUSA
100
AcDbCircle
 10
51.53078476537315
 20
885.2037273012085
 30
0.0
 40
0.0060000000000001
100
AcDbArc
 50
1.000000000079943
 51
78.08588929384622
  0
ARC
  5
DD3
330
1F
100
AcDbEntity
  8
SANINDUSA
100
AcDbCircle
 10
51.52948568132236
 20
885.2401151991927
 30
0.0
 40
0.0099999999999999
100
AcDbArc
 50
50.00000000000043
 51
78.83213646010815
  0
LINE
  5
DD4
330
1F
100
AcDbEntity
  8
SANINDUSA
100
AcDbLine
 10
51.40234129241807
 20
885.342021119569
 30
0.0
 11
51.39611897725243
 21
885.3367752991191
 31
0.0
  0
ARC
  5
DD5
330
1F
100
AcDbEntity
  8
SANINDUSA
100
AcDbCircle
 10
51.56822250445517
 20
885.436327988107
 30
0.0
 40
0.2000000000000001
100
AcDbArc
 50
202.3193137044454
 51
209.7636160429867
  0
LWPOLYLINE
  5
DD6
330
1F
100
AcDbEntity
  8
SANINDUSA
100
AcDbPolyline
 90
       16
 70
   128
 43
0.0
 10
51.40256858985354
 20
885.3432754192164
 10
51.40258120289083
 20
885.3432558641284
 10
51.40280198741139
 20
885.3429135931062
 10
51.40372542728002
 20
885.3414826554997
 10
51.40524655531205
 20
885.3391277599948
 10
51.40720487308494
 20
885.336100100616
 10
51.40939150659574
 20
885.3327248985531
 10
51.41049365917806
 20
885.3310258655367
 10
51.41155715785273
 20
885.3293878071292
 10
51.41255004411418
 20
885.3278597813213
 10
51.41344544068751
 20
885.3264828231967
 10
51.41421173340681
 20
885.3253052034693
 10
51.414833151571
 20
885.324350761024
 10
51.41528608236677
 20
885.3236554036792
 10
51.41556456437168
 20
885.3232280013081
 10
51.41565827839873
 20
885.3230841938939
  0
LWPOLYLINE
  5
DD9
330
1F
100
AcDbEntity
  8
SANINDUSA
100
AcDbPolyline
 90
       14
 70
   128
 43
0.0
 10
51.40792616233658
 20
885.3167241307136
 10
51.40772120856987
 20
885.3170353242893
 10
51.40682277291784
 20
885.3184000274506
 10
51.40530479816608
 20
885.3207078336447
 10
51.40332930464456
 20
885.3237150053315
 10
51.40223373776868
 20
885.325384556814
 10
51.40111145317729
 20
885.3270961457125
 10
51.39998896081358
 20
885.328809417942
 10
51.39890275757846
 20
885.3304685599857
 10
51.39788435594734
 20
885.3320252849725
 10
51.39696194174002
 20
885.3334362152326
 10
51.39597619185497
 20
885.3349450161553
 10
51.39493988784592
 20
885.3365322896769
 10
51.39460633111276
 20
885.3370434255914
  0
ARC
  5
DDB
330
1F
100
AcDbEntity
  8
SANINDUSA
100
AcDbCircle
 10
51.39547441197947
 20
885.337539848404
 30
0.0
 40
0.0010000000000002
100
AcDbArc
 50
209.7636160429789
 51
310.1330889512123
  0
ARC
  5
DDC
330
1F
100
AcDbEntity
  8
SANINDUSA
100
AcDbCircle
 10
51.39716575924381
 20
885.3198172940455
 30
0.0
 40
0.0099999999999999
100
AcDbArc
 50
197.0000000000018
 51
209.3927756192589
  0
ARC
  5
DDD
330
1F
100
AcDbEntity
  8
SANINDUSA
100
AcDbCircle
 10
51.41485530878792
 20
885.3224881739244
 30
0.0
 40
0.0009999999999999
100
AcDbArc
 50
36.58537761830916
 51
130.133088951228
  0
ARC
  5
DDE
330
1F
100
AcDbEntity
  8
SANINDUSA
100
AcDbCircle
 10
51.40872764404718
 20
885.3173221500005
 30
0.0
 40
0.0010000000000002
100
AcDbArc
 50
130.1330889512332
 51
216.7281708454992
  0
LINE
  5
DDF
330
1F
100
AcDbEntity
  8
SANINDUSA
100
AcDbLine
 10
51.40808307877422
 20
885.3180866992854
 30
0.0
 11
51.41421074351496
 21
885.3232527232092
 31
0.0
  0
ARC
  5
DE0
330
1F
100
AcDbEntity
  8
SANINDUSA
100
AcDbCircle
 10
51.40169672714512
 20
885.3427856688538
 30
0.0
 40
0.001
100
AcDbArc
 50
310.1330889512228
 51
29.32417495400563
  0
ARC
  5
DE1
330
1F
100
AcDbEntity
  8
SANINDUSA
100
AcDbCircle
 10
51.56822250445517
 20
885.436327988107
 30
0.0
 40
0.19
100
AcDbArc
 50
199.6697353742696
 51
209.3241749539914
  0
LINE
  5
DE5
330
1F
100
AcDbEntity
  8
SANINDUSA
100
AcDbLine
 10
50.62612330340766
 20
885.3723743851448
 30
0.0
 11
50.62612330340766
 21
885.3623743851448
 31
0.0
  0
ARC
  5
DE6
330
1F
100
AcDbEntity
  8
SANINDUSA
100
AcDbCircle
 10
50.62412330340767
 20
885.3623743851448
 30
0.0
 40
0.002
100
AcDbArc
 50
269.9999999999984
 51
0.0
  0
ARC
  5
DEA
330
1F
100
AcDbEntity
  8
SANINDUSA
100
AcDbCircle
 10
50.61054892162459
 20
885.3553743851447
 30
0.0
 40
0.005
100
AcDbArc
 50
90.0
 51
156.7405354293851
  0
ARC
  5
DF2
330
1F
100
AcDbEntity
  8
SANINDUSA
100
AcDbCircle
 10
51.57539608470313
 20
885.436327988107
 30
0.0
 40
0.2000000000000001
100
AcDbArc
 50
281.5109439208753
 51
336.7405354293854
  0
ARC
  5
DF3
330
1F
100
AcDbEntity
  8
SANINDUSA
100
AcDbCircle
 10
51.57539608470313
 20
885.436327988107
 30
0.0
 40
0.1899999999999999
100
AcDbArc
 50
281.1678635398934
 51
340.3302646257304
  0
LINE
  5
DFA
330
1F
100
AcDbEntity
  8
SANINDUSA
100
AcDbLine
 10
51.59630929457915
 20
885.2023743851448
 30
0.0
 11
51.54730929457915
 21
885.2023743851448
 31
0.0
  0
ARC
  5
DFC
330
1F
100
AcDbEntity
  8
SANINDUSA
100
AcDbCircle
 10
51.54330929457915
 20
885.235042846854
 30
0.0
 40
0.0050000000000001
100
AcDbArc
 50
0.0
 51
49.99999999999813
  0
ARC
  5
E03
330
1F
100
AcDbEntity
  8
SANINDUSA
100
AcDbCircle
 10
51.54730929457915
 20
885.2279867597584
 30
0.0
 40
0.001
100
AcDbArc
 50
260.7783048943429
 51
0.0
  0
ARC
  5
E07
330
1F
100
AcDbEntity
  8
SANINDUSA
100
AcDbCircle
 10
51.54730929457915
 20
885.2129517714734
 30
0.0
 40
0.001
100
AcDbArc
 50
0.0
 51
81.98072624765813
  0
LINE
  5
E08
330
1F
100
AcDbEntity
  8
SANINDUSA
100
AcDbLine
 10
51.54830929457915
 20
885.2279867597584
 30
0.0
 11
51.54830929457915
 21
885.235042846854
 31
0.0
  0
ARC
  5
E0E
330
1F
100
AcDbEntity
  8
SANINDUSA
100
AcDbCircle
 10
51.54730929457915
 20
885.2033743851448
 30
0.0
 40
0.0009999999999999
100
AcDbArc
 50
270.0
 51
0.0
  0
LINE
  5
E0F
330
1F
100
AcDbEntity
  8
SANINDUSA
100
AcDbLine
 10
51.54830929457915
 20
885.2033743851448
 30
0.0
 11
51.54830929457915
 21
885.2129517714734
 31
0.0
  0
ARC
  5
E10
330
1F
100
AcDbEntity
  8
SANINDUSA
100
AcDbCircle
 10
51.61730265648024
 20
885.2305518008504
 30
0.0
 40
0.0099999999999999
100
AcDbArc
 50
101.5109439208754
 51
178.9999999999787
  0
ARC
  5
E11
330
1F
100
AcDbEntity
  8
SANINDUSA
100
AcDbCircle
 10
51.60030929457914
 20
885.235042846854
 30
0.0
 40
0.005
100
AcDbArc
 50
130.0000000000001
 51
180.0
  0
ARC
  5
E12
330
1F
100
AcDbEntity
  8
SANINDUSA
100
AcDbCircle
 10
51.60582659731603
 20
885.2033743851448
 30
0.0
 40
0.0009999999999999
100
AcDbArc
 50
270.0
 51
358.9999999989233
  0
ARC
  5
E13
330
1F
100
AcDbEntity
  8
SANINDUSA
100
AcDbCircle
 10
51.59630929457915
 20
885.2033743851448
 30
0.0
 40
0.0009999999999999
100
AcDbArc
 50
180.0
 51
270.0
  0
LINE
  5
E14
330
1F
100
AcDbEntity
  8
SANINDUSA
100
AcDbLine
 10
51.59630929457915
 20
885.2023743851448
 30
0.0
 11
51.60582659731603
 21
885.2023743851448
 31
0.0
  0
LINE
  5
E15
330
1F
100
AcDbEntity
  8
SANINDUSA
100
AcDbLine
 10
51.59530929457915
 20
885.235042846854
 30
0.0
 11
51.59530929457915
 21
885.2033743851448
 31
0.0
  0
LINE
  5
E16
330
1F
100
AcDbEntity
  8
SANINDUSA
100
AcDbLine
 10
51.60682644501119
 20
885.2033569327383
 30
0.0
 11
51.60730417952867
 21
885.2307263249148
 31
0.0
  0
ARC
  5
E17
330
1F
100
AcDbEntity
  8
SANINDUSA
100
AcDbCircle
 10
51.61413290783594
 20
885.2401151991927
 30
0.0
 40
0.0099999999999999
100
AcDbArc
 50
101.1678635398934
 51
130.0000000000001
  0
LINE
  5
E18
330
1F
100
AcDbEntity
  8
SANINDUSA
100
AcDbLine
 10
51.60770503173907
 20
885.2477756436238
 30
0.0
 11
51.59709535653071
 21
885.2388730690696
 31
0.0
  0
LINE
  5
E1C
330
1F
100
AcDbEntity
  8
SANINDUSA
100
AcDbLine
 10
51.77930929457914
 20
885.3723743851448
 30
0.0
 11
51.76930929457915
 21
885.3723743851448
 31
0.0
  0
LINE
  5
E1D
330
1F
100
AcDbEntity
  8
SANINDUSA
100
AcDbLine
 10
51.76373491279607
 20
885.3603743851449
 30
0.0
 11
51.77730929457915
 21
885.3603743851449
 31
0.0
  0
LINE
  5
E1E
330
1F
100
AcDbEntity
  8
SANINDUSA
100
AcDbLine
 10
51.76430929457914
 20
885.3723743851448
 30
0.0
 11
51.75430929457915
 21
885.3723743851448
 31
0.0
  0
ARC
  5
E1F
330
1F
100
AcDbEntity
  8
SANINDUSA
100
AcDbCircle
 10
51.76373491279607
 20
885.3553743851447
 30
0.0
 40
0.005
100
AcDbArc
 50
90.0
 51
156.7405354293778
  0
LINE
  5
E20
330
1F
100
AcDbEntity
  8
SANINDUSA
100
AcDbLine
 10
51.76430929457914
 20
885.3723743851448
 30
0.0
 11
51.76930929457915
 21
885.3723743851448
 31
0.0
  0
ARC
  5
E21
330
1F
100
AcDbEntity
  8
SANINDUSA
100
AcDbCircle
 10
51.76680929457916
 20
885.3783743851449
 30
0.0
 40
0.0065000000000003
100
AcDbArc
 50
247.3801350519579
 51
292.6198649480388
  0
ARC
  5
E22
330
1F
100
AcDbEntity
  8
SANINDUSA
100
AcDbCircle
 10
51.77730929457915
 20
885.3623743851448
 30
0.0
 40
0.0019999999999999
100
AcDbArc
 50
270.0
 51
0.0
  0
LINE
  5
E23
330
1F
100
AcDbEntity
  8
SANINDUSA
100
AcDbLine
 10
51.77930929457914
 20
885.3623743851448
 30
0.0
 11
51.77930929457914
 21
885.3723743851448
 31
0.0
  0
ENDSEC
  0
SECTION
  2
OBJECTS
  0
DICTIONARY
  5
C
330
0
100
AcDbDictionary
281
     1
  3
ACAD_COLOR
350
EF8
  3
ACAD_GROUP
350
D
  3
ACAD_LAYOUT
350
1A
  3
ACAD_MATERIAL
350
EF7
  3
ACAD_MLINESTYLE
350
17
  3
ACAD_PLOTSETTINGS
350
19
  3
ACAD_PLOTSTYLENAME
350
E
  3
ACAD_TABLESTYLE
350
EF9
  3
ACDBHEADERROUNDTRIPXREC
350
F02
  3
AcDbVariableDictionary
350
3D
  3
ASE_INDEX_DICTIONARY
350
EF3
  0
DICTIONARY
  5
EF8
102
{ACAD_REACTORS
330
C
102
}
330
C
100
AcDbDictionary
281
     1
  0
DICTIONARY
  5
D
102
{ACAD_REACTORS
330
C
102
}
330
C
100
AcDbDictionary
281
     1
  0
DICTIONARY
  5
1A
102
{ACAD_REACTORS
330
C
102
}
330
C
100
AcDbDictionary
281
     1
  3
Layout1
350
1E
  3
Layout2
350
26
  3
Model
350
22
  0
DICTIONARY
  5
EF7
102
{ACAD_REACTORS
330
C
102
}
330
C
100
AcDbDictionary
281
     1
  0
DICTIONARY
  5
17
102
{ACAD_REACTORS
330
C
102
}
330
C
100
AcDbDictionary
281
     1
  3
Standard
350
18
  0
DICTIONARY
  5
19
102
{ACAD_REACTORS
330
C
102
}
330
C
100
AcDbDictionary
281
     1
  0
ACDBDICTIONARYWDFLT
  5
E
102
{ACAD_REACTORS
330
C
102
}
330
C
100
AcDbDictionary
281
     1
  3
Normal
350
F
100
AcDbDictionaryWithDefault
340
F
  0
DICTIONARY
  5
EF9
102
{ACAD_REACTORS
330
C
102
}
330
C
100
AcDbDictionary
281
     1
  3
Standard
350
EFA
  0
DICTIONARY
  5
F02
102
{ACAD_REACTORS
330
C
102
}
330
C
100
AcDbDictionary
281
     1
  0
DICTIONARY
  5
3D
102
{ACAD_REACTORS
330
C
102
}
330
C
100
AcDbDictionary
281
     1
  3
CTABLESTYLE
350
EFF
  3
DIMASSOC
350
3F
  3
HIDETEXT
350
3E
  3
PROJECTNAME
350
F00
  0
DICTIONARY
  5
EF3
102
{ACAD_REACTORS
330
C
102
}
330
C
100
AcDbDictionary
281
     1
  3
ASEBlockHierarchyIndexRecord
350
EF4
1001
DCO15
1040
1529384480.75
  0
LAYOUT
  5
1E
102
{ACAD_XDICTIONARY
360
F03
102
}
102
{ACAD_REACTORS
330
1A
102
}
330
1A
100
AcDbPlotSettings
  1

  2
Ploter HP500
  4

  6

 40
0.0
 41
0.0
 42
0.0
 43
0.0
 44
0.0
 45
0.0
 46
0.0
 47
0.0
 48
0.0
 49
0.0
140
0.0
141
0.0
142
1.0
143
1.0
 70
   688
 72
     0
 73
     0
 74
     5
  7
monochrome.ctb
 75
    16
147
1.0
148
0.0
149
0.0
100
AcDbLayout
  1
Layout1
 70
     1
 71
     1
 10
0.0
 20
0.0
 11
420.0
 21
297.0
 12
0.0
 22
0.0
 32
0.0
 14
1.000000000000000E+20
 24
1.000000000000000E+20
 34
1.000000000000000E+20
 15
-1.000000000000000E+20
 25
-1.000000000000000E+20
 35
-1.000000000000000E+20
146
0.0
 13
0.0
 23
0.0
 33
0.0
 16
1.0
 26
0.0
 36
0.0
 17
0.0
 27
1.0
 37
0.0
 76
     0
330
1B
  0
LAYOUT
  5
26
102
{ACAD_XDICTIONARY
360
F07
102
}
102
{ACAD_REACTORS
330
1A
102
}
330
1A
100
AcDbPlotSettings
  1

  2
Ploter HP500
  4

  6

 40
0.0
 41
0.0
 42
0.0
 43
0.0
 44
0.0
 45
0.0
 46
0.0
 47
0.0
 48
0.0
 49
0.0
140
0.0
141
0.0
142
1.0
143
1.0
 70
   688
 72
     0
 73
     0
 74
     5
  7
monochrome.ctb
 75
    16
147
1.0
148
0.0
149
0.0
100
AcDbLayout
  1
Layout2
 70
     1
 71
     2
 10
0.0
 20
0.0
 11
12.0
 21
9.0
 12
0.0
 22
0.0
 32
0.0
 14
0.0
 24
0.0
 34
0.0
 15
0.0
 25
0.0
 35
0.0
146
0.0
 13
0.0
 23
0.0
 33
0.0
 16
1.0
 26
0.0
 36
0.0
 17
0.0
 27
1.0
 37
0.0
 76
     0
330
23
  0
LAYOUT
  5
22
102
{ACAD_XDICTIONARY
360
F05
102
}
102
{ACAD_REACTORS
330
1A
102
}
330
1A
100
AcDbPlotSettings
  1

  2
Ploter HP500
  4
User268
  6

 40
4.995333194732666
 41
16.97565841674804
 42
4.995330810546875
 43
16.97567749023437
 44
209.9733276367187
 45
296.9259948730469
 46
0.0
 47
0.0
 48
0.0
 49
0.0
140
0.0
141
0.0
142
1.0
143
1.0
 70
 11952
 72
     1
 73
     1
 74
     0
  7

 75
     0
147
1.0
148
-427.5957866592534
149
7.362384574453926
100
AcDbLayout
  1
Model
 70
     1
 71
     0
 10
0.0
 20
0.0
 11
12.0
 21
9.0
 12
0.0
 22
0.0
 32
0.0
 14
0.0
 24
0.0
 34
0.0
 15
0.0
 25
0.0
 35
0.0
146
0.0
 13
0.0
 23
0.0
 33
0.0
 16
1.0
 26
0.0
 36
0.0
 17
0.0
 27
1.0
 37
0.0
 76
     0
330
1F
  0
MLINESTYLE
  5
18
102
{ACAD_REACTORS
330
17
102
}
330
17
100
AcDbMlineStyle
  2
STANDARD
 70
     0
  3

 62
   256
 51
90.0
 52
90.0
 71
     2
 49
0.5
 62
   256
  6
BYLAYER
 49
-0.5
 62
   256
  6
BYLAYER
  0
ACDBPLACEHOLDER
  5
F
102
{ACAD_REACTORS
330
E
102
}
330
E
  0
TABLESTYLE
  5
EFA
102
{ACAD_REACTORS
330
EF9
102
}
330
EF9
100
AcDbTableStyle
  3
Standard
 70
     0
 71
     0
 40
1.5
 41
1.5
280
     0
281
     0
  7
Standard
140
4.5
170
     2
 62
     0
 63
     7
283
     0
274
    -2
284
     1
 64
     0
275
    -2
285
     1
 65
     0
276
    -2
286
     1
 66
     0
277
    -2
287
     1
 67
     0
278
    -2
288
     1
 68
     0
279
    -2
289
     1
 69
     0
  7
Standard
140
6.0
170
     5
 62
     0
 63
     7
283
     0
274
    -2
284
     1
 64
     0
275
    -2
285
     1
 65
     0
276
    -2
286
     1
 66
     0
277
    -2
287
     1
 67
     0
278
    -2
288
     1
 68
     0
279
    -2
289
     1
 69
     0
  7
Standard
140
4.5
170
     5
 62
     0
 63
     7
283
     0
274
    -2
284
     1
 64
     0
275
    -2
285
     1
 65
     0
276
    -2
286
     1
 66
     0
277
    -2
287
     1
 67
     0
278
    -2
288
     1
 68
     0
279
    -2
289
     1
 69
     0
  0
DICTIONARYVAR
  5
EFF
102
{ACAD_REACTORS
330
3D
102
}
330
3D
100
DictionaryVariables
280
     0
  1
STANDARD
  0
DICTIONARYVAR
  5
3F
102
{ACAD_REACTORS
330
3D
102
}
330
3D
100
DictionaryVariables
280
     0
  1
2
  0
DICTIONARYVAR
  5
3E
102
{ACAD_REACTORS
330
3D
102
}
330
3D
100
DictionaryVariables
280
     0
  1
1
  0
DICTIONARYVAR
  5
F00
102
{ACAD_REACTORS
330
3D
102
}
330
3D
100
DictionaryVariables
280
     0
  1

  0
XRECORD
  5
EF4
102
{ACAD_REACTORS
330
EF3
102
}
330
EF3
100
AcDbXrecord
280
     1
  0
DICTIONARY
  5
F03
330
1E
100
AcDbDictionary
280
     1
281
     1
  3
ACAD_XREC_ROUNDTRIP
360
F04
  0
DICTIONARY
  5
F07
330
26
100
AcDbDictionary
280
     1
281
     1
  3
ACAD_XREC_ROUNDTRIP
360
F08
  0
DICTIONARY
  5
F05
330
22
100
AcDbDictionary
280
     1
281
     1
  3
ACAD_XREC_ROUNDTRIP
360
F06
  0
XRECORD
  5
F04
102
{ACAD_REACTORS
330
F03
102
}
330
F03
100
AcDbXrecord
280
     1
102
SHADEPLOT
 70
     0
102
SHADEPLOTRESLEVEL
 70
     2
102
SHADEPLOTCUSTOMDPI
 70
   300
  0
XRECORD
  5
F08
102
{ACAD_REACTORS
330
F07
102
}
330
F07
100
AcDbXrecord
280
     1
102
SHADEPLOT
 70
     0
102
SHADEPLOTRESLEVEL
 70
     2
102
SHADEPLOTCUSTOMDPI
 70
   300
  0
XRECORD
  5
F06
102
{ACAD_REACTORS
330
F05
102
}
330
F05
100
AcDbXrecord
280
     1
102
SHADEPLOT
 70
     0
102
SHADEPLOTRESLEVEL
 70
     2
102
SHADEPLOTCUSTOMDPI
 70
   300
  0
ENDSEC
  0
EOF
